5 лучших риффов для раздражения продавцов гитар

Нет ничего лучше, чем взять шестиструнку и рубануть рок-н-ролл.
А всё что для этого нужно — знать простейшие табы. Ведь всё гениальное просто!
Здесь представлены табулатуры риффов к самым известным песням, они узнаваемы по первым нотам и любимы всеми, кроме продавцов музыкальных магазинов. Даже удивительно, как такие не сложные в исполнении мелодии могут быть такими драйвовыми!
Эта статья предназначена для тех, кто любит играть на гитаре, но делает это не профессионально. Здесь не представлены полные табулатуры (для этого есть специальные сайты), только основные риффы.
Гитарный рифф — это часть мелодии, главная тема, как правило повторяемая на протяжении песни.
Табулатуры настолько просты, что их осилит даже человек, взявший гитару в руки первый раз: числа соответствуют номерам ладов, а строки — положению струн, если смотреть на гитару сверху вниз.
Надеемся, что более опытные музыканты не сочтут описанный подход слишком обывательским, таким образом мы хотим привлечь интерес к игре на гитаре…
Итак, начнем!

 

Smoke On The Water — Deep Purple

Тууу-тууу-тууу! Ту-ту, ту-ту! Тууу-тууу-тууу! Ту-тууу!
Это творение Ричи Блэкмора не играет только самый ленивый рокер. Если ты в их числе, скорее исправляйся!

E|-----------------|---------------|----------------|-----------------|
B|-----------------|---------------|----------------|-----------------|
G|--0---3---5----0-|---3---6-5-----|-0---3---5----3-|---0----(0)------|
D|--0---3---5----0-|---3---6-5-----|-0---3---5----3-|---0----(0)------|
A|-----------------|---------------|----------------|-----------------|
E|-----------------|---------------|----------------|-----------------|

Однако Кай Хансен предостерегает…

no smoke of the water - Kai Hansen

Основатель группы Helloween Кай Хансен

 

Stairway To Heaven — Led Zeppelin

То что в музыкальных магазинах частенько можно встретить таблички типа «Категорически запрещено исполнять Stairway To Heaven», говорит о безусловной популярности этого риффа. А сама песня уверенно держится в топе самых известных рок-композиций по различным опросам.

E|-------5-7----7-|-8----8-2-----2-|-0--------0-----|----------------|
B|-----5----5-----|---5------3-----|---1---1----1---|-0-1-1----------|
G|---5--------5---|-----5------2---|-----2--------2-|-0-2-2----------|
D|-7------6-------|-5------4-------|-3--------------|----------------|
A|----------------|----------------|----------------|-2-0-0----------|
E|----------------|----------------|----------------|----------------|


 

Satisfaction (I Can’t Get No) — The Rolling Stones

От звуков вступления к Satisfaction веет олдскульным роком 60-х.
На самом деле она исполняется на одной пятой струне (A), но для звучности можно добавить и шестую.

E|-------------------------------------|
B|-------------------------------------|
G|-------------------------------------|
D|-------------------------------------|
A|--2--2-----2--4---5--5-5p4---4(p2)---|
E|--0--0-----0--2---3--3-------2-------|


p — Pull Off — «Срыв струны», звук извлекается без повторного удара правой рукой по струне, а «отпусканием» пальца левой руки.

 

Seven Nation Army — The White Stripes

Ещё один простой, но очень драйвовый риф.
Не забудьте попросить ударника ритмично подыграть вам колотушкой бас-бочки, когда будете исполнять эти четыре ноты.

E|-------------------------------------------|
B|-------------------------------------------|
G|-------------------------------------------|
D|-------------------------------------------|
A|---7----7----10----7----5----3----2--------|
E|-------------------------------------------|


 

Personal Jesus — Depeche Mode

Каждый раз когда кто-то играет на акустике Personal Jesus, вспоминается ролик про «трофейную гитару»
Возможно, если вы освоите этот рифф, то запишите что-то не менее крутое.

E|------------------------|
B|------------------------|
G|------------------------|
D|--------4-------------4-|
A|------------------------|
E|-2--5-2----5-2-2-5-2----|


Ждем ваших комментариев в социальных сетях: В контакте и Facebook.
Если всем понравится, то будет продолжение!